ISO-10303-21;
HEADER;
FILE_DESCRIPTION(('STEP AP203'),'1');
FILE_NAME('590-LMF1516.stp','2016-12-28T11:45:07',(' '),(' '),'Spatial InterOp 3D',' ',' ');
FILE_SCHEMA(('CONFIG_CONTROL_DESIGN'));
ENDSEC;
DATA;
#1=DESIGN_CONTEXT('',#51,'design');
#2=APPLICATION_PROTOCOL_DEFINITION('INTERNATIONAL STANDARD','config_control_design',1994,#51);
#3=PRODUCT_CATEGORY_RELATIONSHIP('NONE','NONE',#52,#53);
#4=DATE_AND_TIME(#54,#55);
#5=DATE_TIME_ROLE('creation_date');
#6=DATE_TIME_ROLE('classification_date');
#7=PERSON_AND_ORGANIZATION_ROLE('creator');
#8=PERSON_AND_ORGANIZATION_ROLE('design_supplier');
#9=PERSON_AND_ORGANIZATION_ROLE('classification_officer');
#10=PERSON_AND_ORGANIZATION_ROLE('design_owner');
#11=APPROVAL_PERSON_ORGANIZATION(#56,#57,#58);
#12=APPROVAL_DATE_TIME(#4,#57);
#13=CC_DESIGN_APPROVAL(#57,(#59,#60,#61));
#14=CC_DESIGN_DATE_AND_TIME_ASSIGNMENT(#4,#5,(#61));
#15=CC_DESIGN_DATE_AND_TIME_ASSIGNMENT(#4,#6,(#59));
#16=CC_DESIGN_PERSON_AND_ORGANIZATION_ASSIGNMENT(#56,#10,(#62));
#17=CC_DESIGN_PERSON_AND_ORGANIZATION_ASSIGNMENT(#56,#7,(#61));
#18=CC_DESIGN_PERSON_AND_ORGANIZATION_ASSIGNMENT(#56,#7,(#60));
#19=CC_DESIGN_PERSON_AND_ORGANIZATION_ASSIGNMENT(#56,#8,(#60));
#20=CC_DESIGN_SECURITY_CLASSIFICATION(#59,(#60));
#21=CC_DESIGN_PERSON_AND_ORGANIZATION_ASSIGNMENT(#56,#9,(#59));
#22=SHAPE_DEFINITION_REPRESENTATION(#63,#64);
#23=DESIGN_CONTEXT('',#65,'design');
#24=APPLICATION_PROTOCOL_DEFINITION('INTERNATIONAL STANDARD','config_control_design',1994,#65);
#25=PRODUCT_CATEGORY_RELATIONSHIP('NONE','NONE',#66,#67);
#26=DATE_AND_TIME(#68,#69);
#27=DATE_TIME_ROLE('creation_date');
#28=DATE_TIME_ROLE('classification_date');
#29=PERSON_AND_ORGANIZATION_ROLE('creator');
#30=PERSON_AND_ORGANIZATION_ROLE('design_supplier');
#31=PERSON_AND_ORGANIZATION_ROLE('classification_officer');
#32=PERSON_AND_ORGANIZATION_ROLE('design_owner');
#33=APPROVAL_PERSON_ORGANIZATION(#70,#71,#72);
#34=APPROVAL_DATE_TIME(#26,#71);
#35=CC_DESIGN_APPROVAL(#71,(#73,#74,#75));
#36=CC_DESIGN_DATE_AND_TIME_ASSIGNMENT(#26,#27,(#75));
#37=CC_DESIGN_DATE_AND_TIME_ASSIGNMENT(#26,#28,(#73));
#38=CC_DESIGN_PERSON_AND_ORGANIZATION_ASSIGNMENT(#70,#32,(#76));
#39=CC_DESIGN_PERSON_AND_ORGANIZATION_ASSIGNMENT(#70,#29,(#75));
#40=CC_DESIGN_PERSON_AND_ORGANIZATION_ASSIGNMENT(#70,#29,(#74));
#41=CC_DESIGN_PERSON_AND_ORGANIZATION_ASSIGNMENT(#70,#30,(#74));
#42=CC_DESIGN_SECURITY_CLASSIFICATION(#73,(#74));
#43=CC_DESIGN_PERSON_AND_ORGANIZATION_ASSIGNMENT(#70,#31,(#73));
#44=CONTEXT_DEPENDENT_SHAPE_REPRESENTATION(#77,#78);
#45=SHAPE_DEFINITION_REPRESENTATION(#79,#80);
#46=SHAPE_REPRESENTATION_RELATIONSHIP('NONE','NONE',#80,#81);
#47= (GEOMETRIC_REPRESENTATION_CONTEXT(3)GLOBAL_UNCERTAINTY_ASSIGNED_CONTEXT((#84))GLOBAL_UNIT_ASSIGNED_CONTEXT((#86,#87,#88))REPRESENTATION_CONTEXT('NONE','WORKSPACE'));
#51=APPLICATION_CONTEXT('CONFIGURATION CONTROLLED 3D DESIGNS OF MECHANICAL PARTS AND ASSEMBLIES');
#52=PRODUCT_CATEGORY('part','NONE');
#53=PRODUCT_RELATED_PRODUCT_CATEGORY('detail',' ',(#62));
#54=CALENDAR_DATE(2016,28,11);
#55=LOCAL_TIME(12,45,7.0,#90);
#56=PERSON_AND_ORGANIZATION(#91,#92);
#57=APPROVAL(#93,'SOLID MODEL');
#58=APPROVAL_ROLE('APPROVED');
#59=SECURITY_CLASSIFICATION('','',#94);
#60=PRODUCT_DEFINITION_FORMATION_WITH_SPECIFIED_SOURCE(' ','NONE',#62,.NOT_KNOWN.);
#61=PRODUCT_DEFINITION('NONE','NONE',#60,#1);
#62=PRODUCT('','','PART--DESC',(#95));
#63=PRODUCT_DEFINITION_SHAPE('NONE','NONE',#61);
#64=SHAPE_REPRESENTATION('',(#96,#97),#98);
#65=APPLICATION_CONTEXT('CONFIGURATION CONTROLLED 3D DESIGNS OF MECHANICAL PARTS AND ASSEMBLIES');
#66=PRODUCT_CATEGORY('part','NONE');
#67=PRODUCT_RELATED_PRODUCT_CATEGORY('detail',' ',(#76));
#68=CALENDAR_DATE(2016,28,11);
#69=LOCAL_TIME(12,45,7.0,#99);
#70=PERSON_AND_ORGANIZATION(#100,#101);
#71=APPROVAL(#102,'SOLID MODEL');
#72=APPROVAL_ROLE('APPROVED');
#73=SECURITY_CLASSIFICATION('','',#103);
#74=PRODUCT_DEFINITION_FORMATION_WITH_SPECIFIED_SOURCE(' ','NONE',#76,.NOT_KNOWN.);
#75=PRODUCT_DEFINITION('590-LMF15x16','590-LMF15x16',#74,#23);
#76=PRODUCT('590-LMF15x16','590-LMF15x16','PART-590-LMF15x16-DESC',(#104));
#77=(REPRESENTATION_RELATIONSHIP('','',#80,#64)REPRESENTATION_RELATIONSHIP_WITH_TRANSFORMATION(#107)SHAPE_REPRESENTATION_RELATIONSHIP());
#78=PRODUCT_DEFINITION_SHAPE('NAUO-PROD-DEF','NAUO-PROD-DEF',#109);
#79=PRODUCT_DEFINITION_SHAPE('NONE','NONE',#75);
#80=SHAPE_REPRESENTATION('590-LMF15x16',(#96),#98);
#81=ADVANCED_BREP_SHAPE_REPRESENTATION('',(#110),#47);
#84=UNCERTAINTY_MEASURE_WITH_UNIT(LENGTH_MEASURE(1.0E-006),#86,'','');
#86= (CONVERSION_BASED_UNIT('METRE',#113)LENGTH_UNIT()NAMED_UNIT(#116));
#87= (NAMED_UNIT(#118)PLANE_ANGLE_UNIT()SI_UNIT($,.RADIAN.));
#88= (NAMED_UNIT(#118)SOLID_ANGLE_UNIT()SI_UNIT($,.STERADIAN.));
#90=COORDINATED_UNIVERSAL_TIME_OFFSET(1,0,.AHEAD.);
#91=PERSON('','UNSPECIFIED',$,$,$,$);
#92=ORGANIZATION('UNSPECIFIED','UNSPECIFIED','UNSPECIFIED');
#93=APPROVAL_STATUS('approved');
#94=SECURITY_CLASSIFICATION_LEVEL('unclassified');
#95=MECHANICAL_CONTEXT('',#51,'mechanical');
#96=AXIS2_PLACEMENT_3D('',#124,#125,#126);
#97=AXIS2_PLACEMENT_3D('',#127,#128,#129);
#98= (GEOMETRIC_REPRESENTATION_CONTEXT(3)GLOBAL_UNCERTAINTY_ASSIGNED_CONTEXT((#132))GLOBAL_UNIT_ASSIGNED_CONTEXT((#134,#135,#136))REPRESENTATION_CONTEXT('NONE','WORKSPACE'));
#99=COORDINATED_UNIVERSAL_TIME_OFFSET(1,0,.AHEAD.);
#100=PERSON('','UNSPECIFIED',$,$,$,$);
#101=ORGANIZATION('UNSPECIFIED','UNSPECIFIED','UNSPECIFIED');
#102=APPROVAL_STATUS('approved');
#103=SECURITY_CLASSIFICATION_LEVEL('unclassified');
#104=MECHANICAL_CONTEXT('',#65,'mechanical');
#107=ITEM_DEFINED_TRANSFORMATION('','',#96,#97);
#109=NEXT_ASSEMBLY_USAGE_OCCURRENCE('590-LMF15x16','590-LMF15x16','590-LMF15x16',#61,#75,$);
#110=MANIFOLD_SOLID_BREP('',#138);
#113=LENGTH_MEASURE_WITH_UNIT(LENGTH_MEASURE(1.0),#139);
#116=DIMENSIONAL_EXPONENTS(1.0,0.0,0.0,0.0,0.0,0.0,0.0);
#118=DIMENSIONAL_EXPONENTS(0.0,0.0,0.0,0.0,0.0,0.0,0.0);
#124=CARTESIAN_POINT('',(0.0,0.0,0.0));
#125=DIRECTION('',(0.0,0.0,1.0));
#126=DIRECTION('',(1.0,0.0,0.0));
#127=CARTESIAN_POINT('',(0.0,0.0,0.0));
#128=DIRECTION('',(5.48707263966374E-016,-5.48707263966374E-016,1.0));
#129=DIRECTION('',(-1.60812264967663E-016,1.0,5.48707263966374E-016));
#132=UNCERTAINTY_MEASURE_WITH_UNIT(LENGTH_MEASURE(1.0E-006),#134,'','');
#134= (CONVERSION_BASED_UNIT('METRE',#142)LENGTH_UNIT()NAMED_UNIT(#145));
#135= (NAMED_UNIT(#147)PLANE_ANGLE_UNIT()SI_UNIT($,.RADIAN.));
#136= (NAMED_UNIT(#147)SOLID_ANGLE_UNIT()SI_UNIT($,.STERADIAN.));
#138=CLOSED_SHELL('',(#153,#154,#155,#156,#157,#158,#159,#160,#161,#162,#163,#164,#165,#166,#167,#168,#169,#170,#171));
#139= (NAMED_UNIT(#116)LENGTH_UNIT()SI_UNIT($,.METRE.));
#142=LENGTH_MEASURE_WITH_UNIT(LENGTH_MEASURE(1.0),#173);
#145=DIMENSIONAL_EXPONENTS(1.0,0.0,0.0,0.0,0.0,0.0,0.0);
#147=DIMENSIONAL_EXPONENTS(0.0,0.0,0.0,0.0,0.0,0.0,0.0);
#153=ADVANCED_FACE('',(#174),#175,.F.);
#154=ADVANCED_FACE('',(#176),#177,.T.);
#155=ADVANCED_FACE('',(#178),#179,.F.);
#156=ADVANCED_FACE('',(#180,#181),#182,.F.);
#157=ADVANCED_FACE('',(#183,#184),#185,.F.);
#158=ADVANCED_FACE('',(#186,#187),#188,.T.);
#159=ADVANCED_FACE('',(#189,#190,#191),#192,.F.);
#160=ADVANCED_FACE('',(#193,#194),#195,.T.);
#161=ADVANCED_FACE('',(#196,#197),#198,.T.);
#162=ADVANCED_FACE('',(#199,#200),#201,.T.);
#163=ADVANCED_FACE('',(#202,#203),#204,.F.);
#164=ADVANCED_FACE('',(#205,#206),#207,.T.);
#165=ADVANCED_FACE('',(#208,#209),#210,.T.);
#166=ADVANCED_FACE('',(#211,#212),#213,.T.);
#167=ADVANCED_FACE('',(#214,#215),#216,.T.);
#168=ADVANCED_FACE('',(#217),#218,.F.);
#169=ADVANCED_FACE('',(#219),#220,.F.);
#170=ADVANCED_FACE('',(#221),#222,.T.);
#171=ADVANCED_FACE('',(#223),#224,.F.);
#173= (NAMED_UNIT(#145)LENGTH_UNIT()SI_UNIT($,.METRE.));
#174=FACE_OUTER_BOUND('',#226,.T.);
#175=CYLINDRICAL_SURFACE('',#227,0.00075);
#176=FACE_OUTER_BOUND('',#228,.T.);
#177=PLANE('',#229);
#178=FACE_OUTER_BOUND('',#230,.T.);
#179=CYLINDRICAL_SURFACE('',#231,0.00075);
#180=FACE_BOUND('',#232,.T.);
#181=FACE_OUTER_BOUND('',#233,.T.);
#182=CONICAL_SURFACE('',#234,0.008,0.78539816339745);
#183=FACE_OUTER_BOUND('',#235,.T.);
#184=FACE_BOUND('',#236,.T.);
#185=CONICAL_SURFACE('',#237,0.0075,0.785398163397448);
#186=FACE_BOUND('',#238,.T.);
#187=FACE_OUTER_BOUND('',#239,.T.);
#188=PLANE('',#240);
#189=FACE_OUTER_BOUND('',#241,.T.);
#190=FACE_OUTER_BOUND('',#242,.T.);
#191=FACE_BOUND('',#243,.T.);
#192=CYLINDRICAL_SURFACE('',#244,0.0075);
#193=FACE_OUTER_BOUND('',#245,.T.);
#194=FACE_BOUND('',#246,.T.);
#195=PLANE('',#247);
#196=FACE_OUTER_BOUND('',#248,.T.);
#197=FACE_OUTER_BOUND('',#249,.T.);
#198=CYLINDRICAL_SURFACE('',#250,0.011);
#199=FACE_OUTER_BOUND('',#251,.T.);
#200=FACE_BOUND('',#252,.T.);
#201=CONICAL_SURFACE('',#253,0.0105,0.785398163397449);
#202=FACE_OUTER_BOUND('',#254,.T.);
#203=FACE_OUTER_BOUND('',#255,.T.);
#204=TOROIDAL_SURFACE('',#256,0.0125,0.0015);
#205=FACE_OUTER_BOUND('',#257,.T.);
#206=FACE_BOUND('',#258,.T.);
#207=PLANE('',#259);
#208=FACE_OUTER_BOUND('',#260,.T.);
#209=FACE_BOUND('',#261,.T.);
#210=CONICAL_SURFACE('',#262,0.0135,0.78539816339745);
#211=FACE_OUTER_BOUND('',#263,.T.);
#212=FACE_OUTER_BOUND('',#264,.T.);
#213=CYLINDRICAL_SURFACE('',#265,0.014);
#214=FACE_BOUND('',#266,.T.);
#215=FACE_OUTER_BOUND('',#267,.T.);
#216=CONICAL_SURFACE('',#268,0.014,0.78539816339745);
#217=FACE_OUTER_BOUND('',#269,.T.);
#218=SPHERICAL_SURFACE('',#270,0.00075);
#219=FACE_OUTER_BOUND('',#271,.T.);
#220=SPHERICAL_SURFACE('',#272,0.00075);
#221=FACE_OUTER_BOUND('',#273,.T.);
#222=PLANE('',#274);
#223=FACE_OUTER_BOUND('',#275,.T.);
#224=CYLINDRICAL_SURFACE('',#276,0.00075);
#226=EDGE_LOOP('',(#277,#278,#279,#280));
#227=AXIS2_PLACEMENT_3D('',#281,#282,#283);
#228=EDGE_LOOP('',(#284,#285,#286,#287));
#229=AXIS2_PLACEMENT_3D('',#288,#289,#290);
#230=EDGE_LOOP('',(#291,#292,#293,#294));
#231=AXIS2_PLACEMENT_3D('',#295,#296,#297);
#232=EDGE_LOOP('',(#298));
#233=EDGE_LOOP('',(#299));
#234=AXIS2_PLACEMENT_3D('',#300,#301,#302);
#235=EDGE_LOOP('',(#303));
#236=EDGE_LOOP('',(#304));
#237=AXIS2_PLACEMENT_3D('',#305,#306,#307);
#238=EDGE_LOOP('',(#308));
#239=EDGE_LOOP('',(#309));
#240=AXIS2_PLACEMENT_3D('',#310,#311,#312);
#241=EDGE_LOOP('',(#313));
#242=EDGE_LOOP('',(#314));
#243=EDGE_LOOP('',(#315,#316,#317,#318));
#244=AXIS2_PLACEMENT_3D('',#319,#320,#321);
#245=EDGE_LOOP('',(#322));
#246=EDGE_LOOP('',(#323));
#247=AXIS2_PLACEMENT_3D('',#324,#325,#326);
#248=EDGE_LOOP('',(#327));
#249=EDGE_LOOP('',(#328));
#250=AXIS2_PLACEMENT_3D('',#329,#330,#331);
#251=EDGE_LOOP('',(#332));
#252=EDGE_LOOP('',(#333));
#253=AXIS2_PLACEMENT_3D('',#334,#335,#336);
#254=EDGE_LOOP('',(#337));
#255=EDGE_LOOP('',(#338));
#256=AXIS2_PLACEMENT_3D('',#339,#340,#341);
#257=EDGE_LOOP('',(#342));
#258=EDGE_LOOP('',(#343));
#259=AXIS2_PLACEMENT_3D('',#344,#345,#346);
#260=EDGE_LOOP('',(#347));
#261=EDGE_LOOP('',(#348));
#262=AXIS2_PLACEMENT_3D('',#349,#350,#351);
#263=EDGE_LOOP('',(#352));
#264=EDGE_LOOP('',(#353));
#265=AXIS2_PLACEMENT_3D('',#354,#355,#356);
#266=EDGE_LOOP('',(#357));
#267=EDGE_LOOP('',(#358));
#268=AXIS2_PLACEMENT_3D('',#359,#360,#361);
#269=EDGE_LOOP('',(#362,#363));
#270=AXIS2_PLACEMENT_3D('',#364,#365,#366);
#271=EDGE_LOOP('',(#367,#368));
#272=AXIS2_PLACEMENT_3D('',#369,#370,#371);
#273=EDGE_LOOP('',(#372,#373,#374,#375));
#274=AXIS2_PLACEMENT_3D('',#376,#377,#378);
#275=EDGE_LOOP('',(#379,#380,#381,#382));
#276=AXIS2_PLACEMENT_3D('',#383,#384,#385);
#277=ORIENTED_EDGE('',*,*,#386,.F.);
#278=ORIENTED_EDGE('',*,*,#387,.T.);
#279=ORIENTED_EDGE('',*,*,#388,.T.);
#280=ORIENTED_EDGE('',*,*,#389,.F.);
#281=CARTESIAN_POINT('',(4.66206934168767E-017,-0.00850000000000019,0.00374999999999995));
#282=DIRECTION('',(0.0,1.0,0.0));
#283=DIRECTION('',(0.0,0.0,1.0));
#284=ORIENTED_EDGE('',*,*,#390,.F.);
#285=ORIENTED_EDGE('',*,*,#391,.T.);
#286=ORIENTED_EDGE('',*,*,#386,.T.);
#287=ORIENTED_EDGE('',*,*,#392,.F.);
#288=CARTESIAN_POINT('',(-0.000749999999999955,-0.00850000000000019,0.01225));
#289=DIRECTION('',(1.0,0.0,1.020425574104E-016));
#290=DIRECTION('',(-1.020425574104E-016,0.0,1.0));
#291=ORIENTED_EDGE('',*,*,#393,.F.);
#292=ORIENTED_EDGE('',*,*,#394,.T.);
#293=ORIENTED_EDGE('',*,*,#390,.T.);
#294=ORIENTED_EDGE('',*,*,#395,.F.);
#295=CARTESIAN_POINT('',(4.61870125478825E-017,-0.00850000000000019,0.01225));
#296=DIRECTION('',(0.0,1.0,0.0));
#297=DIRECTION('',(0.0,0.0,1.0));
#298=ORIENTED_EDGE('',*,*,#396,.T.);
#299=ORIENTED_EDGE('',*,*,#397,.F.);
#300=CARTESIAN_POINT('',(0.0,0.0,0.016));
#301=DIRECTION('',(-0.0,6.12323399573677E-017,1.0));
#302=DIRECTION('',(0.0,-1.0,6.12323399573677E-017));
#303=ORIENTED_EDGE('',*,*,#398,.T.);
#304=ORIENTED_EDGE('',*,*,#399,.F.);
#305=CARTESIAN_POINT('',(0.0,0.0,0.0005));
#306=DIRECTION('',(0.0,-6.12323399573677E-017,-1.0));
#307=DIRECTION('',(0.0,1.0,-6.12323399573677E-017));
#308=ORIENTED_EDGE('',*,*,#397,.T.);
#309=ORIENTED_EDGE('',*,*,#400,.F.);
#310=CARTESIAN_POINT('',(0.0135,0.0,0.016));
#311=DIRECTION('',(0.0,6.12323399573677E-017,1.0));
#312=DIRECTION('',(0.0,-1.0,6.12323399573677E-017));
#313=ORIENTED_EDGE('',*,*,#399,.T.);
#314=ORIENTED_EDGE('',*,*,#396,.F.);
#315=ORIENTED_EDGE('',*,*,#401,.T.);
#316=ORIENTED_EDGE('',*,*,#395,.T.);
#317=ORIENTED_EDGE('',*,*,#392,.T.);
#318=ORIENTED_EDGE('',*,*,#389,.T.);
#319=CARTESIAN_POINT('',(0.0,0.0,1.0842021724855E-019));
#320=DIRECTION('',(0.0,-6.12323399573677E-017,-1.0));
#321=DIRECTION('',(0.0,1.0,-6.12323399573677E-017));
#322=ORIENTED_EDGE('',*,*,#402,.T.);
#323=ORIENTED_EDGE('',*,*,#398,.F.);
#324=CARTESIAN_POINT('',(0.008,0.0,1.0842021724855E-019));
#325=DIRECTION('',(0.0,-6.12323399573677E-017,-1.0));
#326=DIRECTION('',(0.0,1.0,-6.12323399573677E-017));
#327=ORIENTED_EDGE('',*,*,#403,.T.);
#328=ORIENTED_EDGE('',*,*,#404,.F.);
#329=CARTESIAN_POINT('',(0.0,0.0,1.0842021724855E-019));
#330=DIRECTION('',(0.0,-6.12323399573677E-017,-1.0));
#331=DIRECTION('',(0.0,1.0,-6.12323399573677E-017));
#332=ORIENTED_EDGE('',*,*,#404,.T.);
#333=ORIENTED_EDGE('',*,*,#402,.F.);
#334=CARTESIAN_POINT('',(0.0,0.0,1.0842021724855E-019));
#335=DIRECTION('',(-0.0,6.12323399573677E-017,1.0));
#336=DIRECTION('',(0.0,-1.0,6.12323399573677E-017));
#337=ORIENTED_EDGE('',*,*,#405,.T.);
#338=ORIENTED_EDGE('',*,*,#403,.F.);
#339=CARTESIAN_POINT('',(0.0,0.0,0.0115));
#340=DIRECTION('',(0.0,-6.12323399573677E-017,-1.0));
#341=DIRECTION('',(0.0,1.0,-6.12323399573677E-017));
#342=ORIENTED_EDGE('',*,*,#406,.T.);
#343=ORIENTED_EDGE('',*,*,#405,.F.);
#344=CARTESIAN_POINT('',(0.0125,0.0,0.013));
#345=DIRECTION('',(0.0,-6.12323399573677E-017,-1.0));
#346=DIRECTION('',(0.0,1.0,-6.12323399573677E-017));
#347=ORIENTED_EDGE('',*,*,#407,.T.);
#348=ORIENTED_EDGE('',*,*,#406,.F.);
#349=CARTESIAN_POINT('',(0.0,0.0,0.013));
#350=DIRECTION('',(-0.0,6.12323399573677E-017,1.0));
#351=DIRECTION('',(0.0,-1.0,6.12323399573677E-017));
#352=ORIENTED_EDGE('',*,*,#408,.T.);
#353=ORIENTED_EDGE('',*,*,#407,.F.);
#354=CARTESIAN_POINT('',(0.0,0.0,1.0842021724855E-019));
#355=DIRECTION('',(0.0,-6.12323399573677E-017,-1.0));
#356=DIRECTION('',(0.0,1.0,-6.12323399573677E-017));
#357=ORIENTED_EDGE('',*,*,#400,.T.);
#358=ORIENTED_EDGE('',*,*,#408,.F.);
#359=CARTESIAN_POINT('',(0.0,0.0,0.0155));
#360=DIRECTION('',(0.0,-6.12323399573677E-017,-1.0));
#361=DIRECTION('',(0.0,1.0,-6.12323399573677E-017));
#362=ORIENTED_EDGE('',*,*,#409,.F.);
#363=ORIENTED_EDGE('',*,*,#394,.F.);
#364=CARTESIAN_POINT('',(4.61870125478825E-017,-0.00775000000000019,0.01225));
#365=DIRECTION('',(0.0,-1.0,0.0));
#366=DIRECTION('',(0.0,0.0,-1.0));
#367=ORIENTED_EDGE('',*,*,#387,.F.);
#368=ORIENTED_EDGE('',*,*,#410,.T.);
#369=CARTESIAN_POINT('',(4.66206934168767E-017,-0.00775000000000019,0.00374999999999995));
#370=DIRECTION('',(0.0,-1.0,0.0));
#371=DIRECTION('',(0.0,0.0,-1.0));
#372=ORIENTED_EDGE('',*,*,#388,.F.);
#373=ORIENTED_EDGE('',*,*,#411,.T.);
#374=ORIENTED_EDGE('',*,*,#393,.T.);
#375=ORIENTED_EDGE('',*,*,#401,.F.);
#376=CARTESIAN_POINT('',(0.000750000000000047,-0.00850000000000019,0.00374999999999995));
#377=DIRECTION('',(-1.0,0.0,0.0));
#378=DIRECTION('',(0.0,1.0,0.0));
#379=ORIENTED_EDGE('',*,*,#391,.F.);
#380=ORIENTED_EDGE('',*,*,#409,.T.);
#381=ORIENTED_EDGE('',*,*,#411,.F.);
#382=ORIENTED_EDGE('',*,*,#410,.F.);
#383=CARTESIAN_POINT('',(4.54280710271426E-017,-0.00775000000000019,0.01225));
#384=DIRECTION('',(1.020425574104E-016,0.0,-1.0));
#385=DIRECTION('',(-1.0,0.0,-1.020425574104E-016));
#386=EDGE_CURVE('',#412,#413,#414,.T.);
#387=EDGE_CURVE('',#412,#415,#416,.F.);
#388=EDGE_CURVE('',#415,#417,#418,.T.);
#389=EDGE_CURVE('',#413,#417,#419,.T.);
#390=EDGE_CURVE('',#420,#421,#422,.T.);
#391=EDGE_CURVE('',#420,#412,#423,.T.);
#392=EDGE_CURVE('',#421,#413,#424,.T.);
#393=EDGE_CURVE('',#425,#426,#427,.T.);
#394=EDGE_CURVE('',#425,#420,#428,.F.);
#395=EDGE_CURVE('',#426,#421,#429,.T.);
#396=EDGE_CURVE('',#430,#430,#431,.T.);
#397=EDGE_CURVE('',#432,#432,#433,.T.);
#398=EDGE_CURVE('',#434,#434,#435,.T.);
#399=EDGE_CURVE('',#436,#436,#437,.T.);
#400=EDGE_CURVE('',#438,#438,#439,.T.);
#401=EDGE_CURVE('',#417,#426,#440,.F.);
#402=EDGE_CURVE('',#441,#441,#442,.T.);
#403=EDGE_CURVE('',#443,#443,#444,.T.);
#404=EDGE_CURVE('',#445,#445,#446,.T.);
#405=EDGE_CURVE('',#447,#447,#448,.T.);
#406=EDGE_CURVE('',#449,#449,#450,.T.);
#407=EDGE_CURVE('',#451,#451,#452,.T.);
#408=EDGE_CURVE('',#453,#453,#454,.T.);
#409=EDGE_CURVE('',#420,#425,#455,.T.);
#410=EDGE_CURVE('',#412,#415,#456,.T.);
#411=EDGE_CURVE('',#415,#425,#457,.T.);
#412=VERTEX_POINT('',#458);
#413=VERTEX_POINT('',#459);
#414=LINE('',#460,#461);
#415=VERTEX_POINT('',#462);
#416=CIRCLE('',#463,0.00075);
#417=VERTEX_POINT('',#464);
#418=LINE('',#465,#466);
#419=B_SPLINE_CURVE_WITH_KNOTS('',3,(#467,#468,#469,#470,#471,#472,#473,#474,#475,#476,#477,#478,#479,#480),.UNSPECIFIED.,.F.,.F.,(4,2,2,2,2,2,4),(0.0,0.000293223490043451,0.000586446980086902,0.0011728939601738,0.00146611745021726,0.00175934094026071,0.00234578792034761),.UNSPECIFIED.);
#420=VERTEX_POINT('',#481);
#421=VERTEX_POINT('',#482);
#422=LINE('',#483,#484);
#423=LINE('',#485,#486);
#424=LINE('',#487,#488);
#425=VERTEX_POINT('',#489);
#426=VERTEX_POINT('',#490);
#427=LINE('',#491,#492);
#428=CIRCLE('',#493,0.00075);
#429=B_SPLINE_CURVE_WITH_KNOTS('',3,(#494,#495,#496,#497,#498,#499,#500,#501,#502,#503,#504,#505,#506,#507),.UNSPECIFIED.,.F.,.F.,(4,2,2,2,2,2,4),(0.0,0.000293223490043448,0.000586446980086896,0.00117289396017379,0.00146611745021724,0.00175934094026069,0.0023457879203476),.UNSPECIFIED.);
#430=VERTEX_POINT('',#508);
#431=CIRCLE('',#509,0.0075);
#432=VERTEX_POINT('',#510);
#433=CIRCLE('',#511,0.008);
#434=VERTEX_POINT('',#512);
#435=CIRCLE('',#513,0.008);
#436=VERTEX_POINT('',#514);
#437=CIRCLE('',#515,0.0075);
#438=VERTEX_POINT('',#516);
#439=CIRCLE('',#517,0.0135);
#440=LINE('',#518,#519);
#441=VERTEX_POINT('',#520);
#442=CIRCLE('',#521,0.0105);
#443=VERTEX_POINT('',#522);
#444=CIRCLE('',#523,0.011);
#445=VERTEX_POINT('',#524);
#446=CIRCLE('',#525,0.011);
#447=VERTEX_POINT('',#526);
#448=CIRCLE('',#527,0.0125);
#449=VERTEX_POINT('',#528);
#450=CIRCLE('',#529,0.0135);
#451=VERTEX_POINT('',#530);
#452=CIRCLE('',#531,0.014);
#453=VERTEX_POINT('',#532);
#454=CIRCLE('',#533,0.014);
#455=CIRCLE('',#534,0.00075);
#456=CIRCLE('',#535,0.00075);
#457=LINE('',#536,#537);
#458=CARTESIAN_POINT('',(-0.000749999999999954,-0.00775000000000019,0.00374999999999995));
#459=CARTESIAN_POINT('',(-0.000749999999999954,-0.00746240577829966,0.00374999999999995));
#460=CARTESIAN_POINT('',(-0.000749999999999954,-0.00850000000000019,0.00374999999999995));
#461=VECTOR('',#538,1.0);
#462=CARTESIAN_POINT('',(0.000750000000000047,-0.00775000000000019,0.00374999999999995));
#463=AXIS2_PLACEMENT_3D('',#539,#540,#541);
#464=CARTESIAN_POINT('',(0.000750000000000047,-0.00746240577829965,0.00374999999999995));
#465=CARTESIAN_POINT('',(0.000750000000000047,-0.00850000000000019,0.00374999999999995));
#466=VECTOR('',#542,1.0);
#467=CARTESIAN_POINT('',(-0.000749999999999954,-0.00746240577829966,0.00374999999999995));
#468=CARTESIAN_POINT('',(-0.000749999999999954,-0.00746240577829966,0.00365084670796197));
#469=CARTESIAN_POINT('',(-0.000730460349312797,-0.00746443951359252,0.00355355586294188));
#470=CARTESIAN_POINT('',(-0.000655164260427602,-0.00747142485513023,0.003371949192884));
#471=CARTESIAN_POINT('',(-0.000599457233134767,-0.0074763263048863,0.00328879440276197));
#472=CARTESIAN_POINT('',(-0.000392045198458666,-0.00749102907005007,0.00308139034445302));
#473=CARTESIAN_POINT('',(-0.000196291811917959,-0.00749998609759239,0.0030001390241107));
#474=CARTESIAN_POINT('',(9.73480413934836E-005,-0.00750000692291101,0.00299993077087256));
#475=CARTESIAN_POINT('',(0.000195676683688839,-0.00749799799338525,0.00301933470906288));
#476=CARTESIAN_POINT('',(0.000377349071967563,-0.00749105272650206,0.00309443245214172));
#477=CARTESIAN_POINT('',(0.000459910751518448,-0.00748621499901442,0.0031493459004466));
#478=CARTESIAN_POINT('',(0.000670088100299161,-0.00747132609254611,0.00335923802062198));
#479=CARTESIAN_POINT('',(0.000750000000000047,-0.00746240577829965,0.00355169377307105));
#480=CARTESIAN_POINT('',(0.000750000000000047,-0.00746240577829965,0.00374999999999996));
#481=CARTESIAN_POINT('',(-0.000749999999999955,-0.00775000000000019,0.01225));
#482=CARTESIAN_POINT('',(-0.000749999999999955,-0.00746240577829966,0.01225));
#483=CARTESIAN_POINT('',(-0.000749999999999955,-0.00850000000000019,0.01225));
#484=VECTOR('',#543,1.0);
#485=CARTESIAN_POINT('',(-0.000749999999999955,-0.00775000000000019,0.01225));
#486=VECTOR('',#544,1.0);
#487=CARTESIAN_POINT('',(-0.000749999999999953,-0.00746240577829966,4.88828866707425E-019));
#488=VECTOR('',#545,1.0);
#489=CARTESIAN_POINT('',(0.000750000000000047,-0.00775000000000019,0.01225));
#490=CARTESIAN_POINT('',(0.000750000000000047,-0.00746240577829965,0.01225));
#491=CARTESIAN_POINT('',(0.000750000000000047,-0.00850000000000019,0.01225));
#492=VECTOR('',#546,1.0);
#493=AXIS2_PLACEMENT_3D('',#547,#548,#549);
#494=CARTESIAN_POINT('',(0.000750000000000047,-0.00746240577829965,0.01225));
#495=CARTESIAN_POINT('',(0.000750000000000047,-0.00746240577829965,0.012349153292038));
#496=CARTESIAN_POINT('',(0.000730460349312888,-0.00746443951359251,0.0124464441370581));
#497=CARTESIAN_POINT('',(0.000655164260427694,-0.00747142485513023,0.012628050807116));
#498=CARTESIAN_POINT('',(0.000599457233134856,-0.00747632630488629,0.012711205597238));
#499=CARTESIAN_POINT('',(0.000392045198458764,-0.00749102907005006,0.0129186096555469));
#500=CARTESIAN_POINT('',(0.000196291811918041,-0.00749998609759238,0.0129998609758893));
#501=CARTESIAN_POINT('',(-9.73480413933816E-005,-0.00750000692291102,0.0130000692291274));
#502=CARTESIAN_POINT('',(-0.000195676683688747,-0.00749799799338526,0.0129806652909371));
#503=CARTESIAN_POINT('',(-0.00037734907196746,-0.00749105272650207,0.0129055675478582));
#504=CARTESIAN_POINT('',(-0.000459910751518353,-0.00748621499901442,0.0128506540995534));
#505=CARTESIAN_POINT('',(-0.000670088100299057,-0.00747132609254612,0.012640761979378));
#506=CARTESIAN_POINT('',(-0.000749999999999955,-0.00746240577829966,0.0124483062269289));
#507=CARTESIAN_POINT('',(-0.000749999999999955,-0.00746240577829966,0.01225));
#508=CARTESIAN_POINT('',(0.0,0.0075,0.0155));
#509=AXIS2_PLACEMENT_3D('',#550,#551,#552);
#510=CARTESIAN_POINT('',(0.0,0.008,0.016));
#511=AXIS2_PLACEMENT_3D('',#553,#554,#555);
#512=CARTESIAN_POINT('',(0.0,0.008,-3.81438502410391E-019));
#513=AXIS2_PLACEMENT_3D('',#556,#557,#558);
#514=CARTESIAN_POINT('',(0.0,0.0075,0.0005));
#515=AXIS2_PLACEMENT_3D('',#559,#560,#561);
#516=CARTESIAN_POINT('',(0.0,0.0135,0.016));
#517=AXIS2_PLACEMENT_3D('',#562,#563,#564);
#518=CARTESIAN_POINT('',(0.000750000000000047,-0.00746240577829965,5.6536078476522E-019));
#519=VECTOR('',#565,1.0);
#520=CARTESIAN_POINT('',(0.0,0.0105,-5.3451935230381E-019));
#521=AXIS2_PLACEMENT_3D('',#566,#567,#568);
#522=CARTESIAN_POINT('',(0.0,0.011,0.0115));
#523=AXIS2_PLACEMENT_3D('',#569,#570,#571);
#524=CARTESIAN_POINT('',(0.0,0.011,0.0005));
#525=AXIS2_PLACEMENT_3D('',#572,#573,#574);
#526=CARTESIAN_POINT('',(0.0,0.0125,0.013));
#527=AXIS2_PLACEMENT_3D('',#575,#576,#577);
#528=CARTESIAN_POINT('',(0.0,0.0135,0.013));
#529=AXIS2_PLACEMENT_3D('',#578,#579,#580);
#530=CARTESIAN_POINT('',(0.0,0.014,0.0135));
#531=AXIS2_PLACEMENT_3D('',#581,#582,#583);
#532=CARTESIAN_POINT('',(0.0,0.014,0.0155));
#533=AXIS2_PLACEMENT_3D('',#584,#585,#586);
#534=AXIS2_PLACEMENT_3D('',#587,#588,#589);
#535=AXIS2_PLACEMENT_3D('',#590,#591,#592);
#536=CARTESIAN_POINT('',(0.000750000000000047,-0.00775000000000019,0.00374999999999995));
#537=VECTOR('',#593,1.0);
#538=DIRECTION('',(0.0,1.0,0.0));
#539=CARTESIAN_POINT('',(4.66206934168767E-017,-0.00775000000000019,0.00374999999999995));
#540=DIRECTION('',(0.0,1.0,0.0));
#541=DIRECTION('',(0.0,0.0,1.0));
#542=DIRECTION('',(0.0,1.0,0.0));
#543=DIRECTION('',(0.0,1.0,0.0));
#544=DIRECTION('',(1.020425574104E-016,0.0,-1.0));
#545=DIRECTION('',(0.0,-6.12323399573677E-017,-1.0));
#546=DIRECTION('',(0.0,1.0,0.0));
#547=CARTESIAN_POINT('',(4.61870125478825E-017,-0.00775000000000019,0.01225));
#548=DIRECTION('',(0.0,1.0,0.0));
#549=DIRECTION('',(0.0,0.0,1.0));
#550=CARTESIAN_POINT('',(0.0,0.0,0.0155));
#551=DIRECTION('',(0.0,-6.12323399573677E-017,-1.0));
#552=DIRECTION('',(0.0,1.0,-6.12323399573677E-017));
#553=CARTESIAN_POINT('',(0.0,0.0,0.016));
#554=DIRECTION('',(0.0,-6.12323399573677E-017,-1.0));
#555=DIRECTION('',(0.0,1.0,-6.12323399573677E-017));
#556=CARTESIAN_POINT('',(0.0,0.0,1.0842021724855E-019));
#557=DIRECTION('',(0.0,-6.12323399573677E-017,-1.0));
#558=DIRECTION('',(0.0,1.0,-6.12323399573677E-017));
#559=CARTESIAN_POINT('',(0.0,0.0,0.0005));
#560=DIRECTION('',(0.0,-6.12323399573677E-017,-1.0));
#561=DIRECTION('',(0.0,1.0,-6.12323399573677E-017));
#562=CARTESIAN_POINT('',(0.0,0.0,0.016));
#563=DIRECTION('',(0.0,-6.12323399573677E-017,-1.0));
#564=DIRECTION('',(0.0,1.0,-6.12323399573677E-017));
#565=DIRECTION('',(0.0,-6.12323399573677E-017,-1.0));
#566=CARTESIAN_POINT('',(0.0,0.0,1.0842021724855E-019));
#567=DIRECTION('',(0.0,-6.12323399573677E-017,-1.0));
#568=DIRECTION('',(0.0,1.0,-6.12323399573677E-017));
#569=CARTESIAN_POINT('',(0.0,0.0,0.0115));
#570=DIRECTION('',(0.0,-6.12323399573677E-017,-1.0));
#571=DIRECTION('',(0.0,1.0,-6.12323399573677E-017));
#572=CARTESIAN_POINT('',(0.0,0.0,0.0005));
#573=DIRECTION('',(0.0,-6.12323399573677E-017,-1.0));
#574=DIRECTION('',(0.0,1.0,-6.12323399573677E-017));
#575=CARTESIAN_POINT('',(0.0,0.0,0.013));
#576=DIRECTION('',(0.0,-6.12323399573677E-017,-1.0));
#577=DIRECTION('',(0.0,1.0,-6.12323399573677E-017));
#578=CARTESIAN_POINT('',(0.0,0.0,0.013));
#579=DIRECTION('',(0.0,-6.12323399573677E-017,-1.0));
#580=DIRECTION('',(0.0,1.0,-6.12323399573677E-017));
#581=CARTESIAN_POINT('',(0.0,0.0,0.0135));
#582=DIRECTION('',(0.0,-6.12323399573677E-017,-1.0));
#583=DIRECTION('',(0.0,1.0,-6.12323399573677E-017));
#584=CARTESIAN_POINT('',(0.0,0.0,0.0155));
#585=DIRECTION('',(0.0,-6.12323399573677E-017,-1.0));
#586=DIRECTION('',(0.0,1.0,-6.12323399573677E-017));
#587=CARTESIAN_POINT('',(4.54280710271426E-017,-0.00775000000000019,0.01225));
#588=DIRECTION('',(0.0,0.0,1.0));
#589=DIRECTION('',(1.0,0.0,0.0));
#590=CARTESIAN_POINT('',(4.6295432765131E-017,-0.00775000000000019,0.00374999999999995));
#591=DIRECTION('',(0.0,-2.31296463463575E-015,1.0));
#592=DIRECTION('',(0.0,-1.0,-2.31296463463575E-015));
#593=DIRECTION('',(0.0,0.0,1.0));
ENDSEC;
END-ISO-10303-21;
