ISO-10303-21;
HEADER;
FILE_DESCRIPTION(('STEP AP203'),'1');
FILE_NAME('580-LM210120.stp','2016-12-28T11:19:25',(' '),(' '),'Spatial InterOp 3D',' ',' ');
FILE_SCHEMA(('CONFIG_CONTROL_DESIGN'));
ENDSEC;
DATA;
#1=DESIGN_CONTEXT('',#51,'design');
#2=APPLICATION_PROTOCOL_DEFINITION('INTERNATIONAL STANDARD','config_control_design',1994,#51);
#3=PRODUCT_CATEGORY_RELATIONSHIP('NONE','NONE',#52,#53);
#4=DATE_AND_TIME(#54,#55);
#5=DATE_TIME_ROLE('creation_date');
#6=DATE_TIME_ROLE('classification_date');
#7=PERSON_AND_ORGANIZATION_ROLE('creator');
#8=PERSON_AND_ORGANIZATION_ROLE('design_supplier');
#9=PERSON_AND_ORGANIZATION_ROLE('classification_officer');
#10=PERSON_AND_ORGANIZATION_ROLE('design_owner');
#11=APPROVAL_PERSON_ORGANIZATION(#56,#57,#58);
#12=APPROVAL_DATE_TIME(#4,#57);
#13=CC_DESIGN_APPROVAL(#57,(#59,#60,#61));
#14=CC_DESIGN_DATE_AND_TIME_ASSIGNMENT(#4,#5,(#61));
#15=CC_DESIGN_DATE_AND_TIME_ASSIGNMENT(#4,#6,(#59));
#16=CC_DESIGN_PERSON_AND_ORGANIZATION_ASSIGNMENT(#56,#10,(#62));
#17=CC_DESIGN_PERSON_AND_ORGANIZATION_ASSIGNMENT(#56,#7,(#61));
#18=CC_DESIGN_PERSON_AND_ORGANIZATION_ASSIGNMENT(#56,#7,(#60));
#19=CC_DESIGN_PERSON_AND_ORGANIZATION_ASSIGNMENT(#56,#8,(#60));
#20=CC_DESIGN_SECURITY_CLASSIFICATION(#59,(#60));
#21=CC_DESIGN_PERSON_AND_ORGANIZATION_ASSIGNMENT(#56,#9,(#59));
#22=SHAPE_DEFINITION_REPRESENTATION(#63,#64);
#23=DESIGN_CONTEXT('',#65,'design');
#24=APPLICATION_PROTOCOL_DEFINITION('INTERNATIONAL STANDARD','config_control_design',1994,#65);
#25=PRODUCT_CATEGORY_RELATIONSHIP('NONE','NONE',#66,#67);
#26=DATE_AND_TIME(#68,#69);
#27=DATE_TIME_ROLE('creation_date');
#28=DATE_TIME_ROLE('classification_date');
#29=PERSON_AND_ORGANIZATION_ROLE('creator');
#30=PERSON_AND_ORGANIZATION_ROLE('design_supplier');
#31=PERSON_AND_ORGANIZATION_ROLE('classification_officer');
#32=PERSON_AND_ORGANIZATION_ROLE('design_owner');
#33=APPROVAL_PERSON_ORGANIZATION(#70,#71,#72);
#34=APPROVAL_DATE_TIME(#26,#71);
#35=CC_DESIGN_APPROVAL(#71,(#73,#74,#75));
#36=CC_DESIGN_DATE_AND_TIME_ASSIGNMENT(#26,#27,(#75));
#37=CC_DESIGN_DATE_AND_TIME_ASSIGNMENT(#26,#28,(#73));
#38=CC_DESIGN_PERSON_AND_ORGANIZATION_ASSIGNMENT(#70,#32,(#76));
#39=CC_DESIGN_PERSON_AND_ORGANIZATION_ASSIGNMENT(#70,#29,(#75));
#40=CC_DESIGN_PERSON_AND_ORGANIZATION_ASSIGNMENT(#70,#29,(#74));
#41=CC_DESIGN_PERSON_AND_ORGANIZATION_ASSIGNMENT(#70,#30,(#74));
#42=CC_DESIGN_SECURITY_CLASSIFICATION(#73,(#74));
#43=CC_DESIGN_PERSON_AND_ORGANIZATION_ASSIGNMENT(#70,#31,(#73));
#44=CONTEXT_DEPENDENT_SHAPE_REPRESENTATION(#77,#78);
#45=SHAPE_DEFINITION_REPRESENTATION(#79,#80);
#46=SHAPE_REPRESENTATION_RELATIONSHIP('NONE','NONE',#80,#81);
#47= (GEOMETRIC_REPRESENTATION_CONTEXT(3)GLOBAL_UNCERTAINTY_ASSIGNED_CONTEXT((#84))GLOBAL_UNIT_ASSIGNED_CONTEXT((#86,#87,#88))REPRESENTATION_CONTEXT('NONE','WORKSPACE'));
#51=APPLICATION_CONTEXT('CONFIGURATION CONTROLLED 3D DESIGNS OF MECHANICAL PARTS AND ASSEMBLIES');
#52=PRODUCT_CATEGORY('part','NONE');
#53=PRODUCT_RELATED_PRODUCT_CATEGORY('detail',' ',(#62));
#54=CALENDAR_DATE(2016,28,11);
#55=LOCAL_TIME(12,19,25.0,#90);
#56=PERSON_AND_ORGANIZATION(#91,#92);
#57=APPROVAL(#93,'SOLID MODEL');
#58=APPROVAL_ROLE('APPROVED');
#59=SECURITY_CLASSIFICATION('','',#94);
#60=PRODUCT_DEFINITION_FORMATION_WITH_SPECIFIED_SOURCE(' ','NONE',#62,.NOT_KNOWN.);
#61=PRODUCT_DEFINITION('NONE','NONE',#60,#1);
#62=PRODUCT('','','PART--DESC',(#95));
#63=PRODUCT_DEFINITION_SHAPE('NONE','NONE',#61);
#64=SHAPE_REPRESENTATION('',(#96,#97),#98);
#65=APPLICATION_CONTEXT('CONFIGURATION CONTROLLED 3D DESIGNS OF MECHANICAL PARTS AND ASSEMBLIES');
#66=PRODUCT_CATEGORY('part','NONE');
#67=PRODUCT_RELATED_PRODUCT_CATEGORY('detail',' ',(#76));
#68=CALENDAR_DATE(2016,28,11);
#69=LOCAL_TIME(12,19,25.0,#99);
#70=PERSON_AND_ORGANIZATION(#100,#101);
#71=APPROVAL(#102,'SOLID MODEL');
#72=APPROVAL_ROLE('APPROVED');
#73=SECURITY_CLASSIFICATION('','',#103);
#74=PRODUCT_DEFINITION_FORMATION_WITH_SPECIFIED_SOURCE(' ','NONE',#76,.NOT_KNOWN.);
#75=PRODUCT_DEFINITION('580-LM210x120','580-LM210x120',#74,#23);
#76=PRODUCT('580-LM210x120','580-LM210x120','PART-580-LM210x120-DESC',(#104));
#77=(REPRESENTATION_RELATIONSHIP('','',#80,#64)REPRESENTATION_RELATIONSHIP_WITH_TRANSFORMATION(#107)SHAPE_REPRESENTATION_RELATIONSHIP());
#78=PRODUCT_DEFINITION_SHAPE('NAUO-PROD-DEF','NAUO-PROD-DEF',#109);
#79=PRODUCT_DEFINITION_SHAPE('NONE','NONE',#75);
#80=SHAPE_REPRESENTATION('580-LM210x120',(#96),#98);
#81=ADVANCED_BREP_SHAPE_REPRESENTATION('',(#110),#47);
#84=UNCERTAINTY_MEASURE_WITH_UNIT(LENGTH_MEASURE(1.0E-006),#86,'','');
#86= (CONVERSION_BASED_UNIT('METRE',#113)LENGTH_UNIT()NAMED_UNIT(#116));
#87= (NAMED_UNIT(#118)PLANE_ANGLE_UNIT()SI_UNIT($,.RADIAN.));
#88= (NAMED_UNIT(#118)SOLID_ANGLE_UNIT()SI_UNIT($,.STERADIAN.));
#90=COORDINATED_UNIVERSAL_TIME_OFFSET(1,0,.AHEAD.);
#91=PERSON('','UNSPECIFIED',$,$,$,$);
#92=ORGANIZATION('UNSPECIFIED','UNSPECIFIED','UNSPECIFIED');
#93=APPROVAL_STATUS('approved');
#94=SECURITY_CLASSIFICATION_LEVEL('unclassified');
#95=MECHANICAL_CONTEXT('',#51,'mechanical');
#96=AXIS2_PLACEMENT_3D('',#124,#125,#126);
#97=AXIS2_PLACEMENT_3D('',#127,#128,#129);
#98= (GEOMETRIC_REPRESENTATION_CONTEXT(3)GLOBAL_UNCERTAINTY_ASSIGNED_CONTEXT((#132))GLOBAL_UNIT_ASSIGNED_CONTEXT((#134,#135,#136))REPRESENTATION_CONTEXT('NONE','WORKSPACE'));
#99=COORDINATED_UNIVERSAL_TIME_OFFSET(1,0,.AHEAD.);
#100=PERSON('','UNSPECIFIED',$,$,$,$);
#101=ORGANIZATION('UNSPECIFIED','UNSPECIFIED','UNSPECIFIED');
#102=APPROVAL_STATUS('approved');
#103=SECURITY_CLASSIFICATION_LEVEL('unclassified');
#104=MECHANICAL_CONTEXT('',#65,'mechanical');
#107=ITEM_DEFINED_TRANSFORMATION('','',#96,#97);
#109=NEXT_ASSEMBLY_USAGE_OCCURRENCE('580-LM210x120','580-LM210x120','580-LM210x120',#61,#75,$);
#110=MANIFOLD_SOLID_BREP('',#138);
#113=LENGTH_MEASURE_WITH_UNIT(LENGTH_MEASURE(1.0),#139);
#116=DIMENSIONAL_EXPONENTS(1.0,0.0,0.0,0.0,0.0,0.0,0.0);
#118=DIMENSIONAL_EXPONENTS(0.0,0.0,0.0,0.0,0.0,0.0,0.0);
#124=CARTESIAN_POINT('',(0.0,0.0,0.0));
#125=DIRECTION('',(0.0,0.0,1.0));
#126=DIRECTION('',(1.0,0.0,0.0));
#127=CARTESIAN_POINT('',(0.0,0.0,0.0));
#128=DIRECTION('',(5.48707263966374E-016,-5.48707263966374E-016,1.0));
#129=DIRECTION('',(-1.60812264967663E-016,1.0,5.48707263966374E-016));
#132=UNCERTAINTY_MEASURE_WITH_UNIT(LENGTH_MEASURE(1.0E-006),#134,'','');
#134= (CONVERSION_BASED_UNIT('METRE',#142)LENGTH_UNIT()NAMED_UNIT(#145));
#135= (NAMED_UNIT(#147)PLANE_ANGLE_UNIT()SI_UNIT($,.RADIAN.));
#136= (NAMED_UNIT(#147)SOLID_ANGLE_UNIT()SI_UNIT($,.STERADIAN.));
#138=CLOSED_SHELL('',(#153,#154,#155,#156,#157,#158,#159,#160,#161,#162,#163,#164,#165,#166,#167));
#139= (NAMED_UNIT(#116)LENGTH_UNIT()SI_UNIT($,.METRE.));
#142=LENGTH_MEASURE_WITH_UNIT(LENGTH_MEASURE(1.0),#169);
#145=DIMENSIONAL_EXPONENTS(1.0,0.0,0.0,0.0,0.0,0.0,0.0);
#147=DIMENSIONAL_EXPONENTS(0.0,0.0,0.0,0.0,0.0,0.0,0.0);
#153=ADVANCED_FACE('',(#170),#171,.F.);
#154=ADVANCED_FACE('',(#172),#173,.T.);
#155=ADVANCED_FACE('',(#174),#175,.F.);
#156=ADVANCED_FACE('',(#176,#177,#178),#179,.F.);
#157=ADVANCED_FACE('',(#180,#181),#182,.F.);
#158=ADVANCED_FACE('',(#183,#184),#185,.F.);
#159=ADVANCED_FACE('',(#186,#187),#188,.T.);
#160=ADVANCED_FACE('',(#189,#190),#191,.T.);
#161=ADVANCED_FACE('',(#192,#193),#194,.T.);
#162=ADVANCED_FACE('',(#195,#196),#197,.T.);
#163=ADVANCED_FACE('',(#198,#199),#200,.T.);
#164=ADVANCED_FACE('',(#201),#202,.F.);
#165=ADVANCED_FACE('',(#203),#204,.F.);
#166=ADVANCED_FACE('',(#205),#206,.T.);
#167=ADVANCED_FACE('',(#207),#208,.F.);
#169= (NAMED_UNIT(#145)LENGTH_UNIT()SI_UNIT($,.METRE.));
#170=FACE_OUTER_BOUND('',#210,.T.);
#171=CYLINDRICAL_SURFACE('',#211,0.00225);
#172=FACE_OUTER_BOUND('',#212,.T.);
#173=PLANE('',#213);
#174=FACE_OUTER_BOUND('',#214,.T.);
#175=CYLINDRICAL_SURFACE('',#215,0.00225);
#176=FACE_OUTER_BOUND('',#216,.T.);
#177=FACE_OUTER_BOUND('',#217,.T.);
#178=FACE_BOUND('',#218,.T.);
#179=CYLINDRICAL_SURFACE('',#219,0.105);
#180=FACE_BOUND('',#220,.T.);
#181=FACE_OUTER_BOUND('',#221,.T.);
#182=CONICAL_SURFACE('',#222,0.107,0.785398163397448);
#183=FACE_OUTER_BOUND('',#223,.T.);
#184=FACE_BOUND('',#224,.T.);
#185=CONICAL_SURFACE('',#225,0.105,0.78539816339745);
#186=FACE_OUTER_BOUND('',#226,.T.);
#187=FACE_BOUND('',#227,.T.);
#188=PLANE('',#228);
#189=FACE_OUTER_BOUND('',#229,.T.);
#190=FACE_BOUND('',#230,.T.);
#191=CONICAL_SURFACE('',#231,0.113,0.78539816339745);
#192=FACE_OUTER_BOUND('',#232,.T.);
#193=FACE_OUTER_BOUND('',#233,.T.);
#194=CYLINDRICAL_SURFACE('',#234,0.115);
#195=FACE_BOUND('',#235,.T.);
#196=FACE_OUTER_BOUND('',#236,.T.);
#197=CONICAL_SURFACE('',#237,0.115,0.785398163397448);
#198=FACE_BOUND('',#238,.T.);
#199=FACE_OUTER_BOUND('',#239,.T.);
#200=PLANE('',#240);
#201=FACE_OUTER_BOUND('',#241,.T.);
#202=SPHERICAL_SURFACE('',#242,0.00225);
#203=FACE_OUTER_BOUND('',#243,.T.);
#204=SPHERICAL_SURFACE('',#244,0.00225);
#205=FACE_OUTER_BOUND('',#245,.T.);
#206=PLANE('',#246);
#207=FACE_OUTER_BOUND('',#247,.T.);
#208=CYLINDRICAL_SURFACE('',#248,0.00225);
#210=EDGE_LOOP('',(#249,#250,#251,#252));
#211=AXIS2_PLACEMENT_3D('',#253,#254,#255);
#212=EDGE_LOOP('',(#256,#257,#258,#259));
#213=AXIS2_PLACEMENT_3D('',#260,#261,#262);
#214=EDGE_LOOP('',(#263,#264,#265,#266));
#215=AXIS2_PLACEMENT_3D('',#267,#268,#269);
#216=EDGE_LOOP('',(#270));
#217=EDGE_LOOP('',(#271));
#218=EDGE_LOOP('',(#272,#273,#274,#275));
#219=AXIS2_PLACEMENT_3D('',#276,#277,#278);
#220=EDGE_LOOP('',(#279));
#221=EDGE_LOOP('',(#280));
#222=AXIS2_PLACEMENT_3D('',#281,#282,#283);
#223=EDGE_LOOP('',(#284));
#224=EDGE_LOOP('',(#285));
#225=AXIS2_PLACEMENT_3D('',#286,#287,#288);
#226=EDGE_LOOP('',(#289));
#227=EDGE_LOOP('',(#290));
#228=AXIS2_PLACEMENT_3D('',#291,#292,#293);
#229=EDGE_LOOP('',(#294));
#230=EDGE_LOOP('',(#295));
#231=AXIS2_PLACEMENT_3D('',#296,#297,#298);
#232=EDGE_LOOP('',(#299));
#233=EDGE_LOOP('',(#300));
#234=AXIS2_PLACEMENT_3D('',#301,#302,#303);
#235=EDGE_LOOP('',(#304));
#236=EDGE_LOOP('',(#305));
#237=AXIS2_PLACEMENT_3D('',#306,#307,#308);
#238=EDGE_LOOP('',(#309));
#239=EDGE_LOOP('',(#310));
#240=AXIS2_PLACEMENT_3D('',#311,#312,#313);
#241=EDGE_LOOP('',(#314,#315));
#242=AXIS2_PLACEMENT_3D('',#316,#317,#318);
#243=EDGE_LOOP('',(#319,#320));
#244=AXIS2_PLACEMENT_3D('',#321,#322,#323);
#245=EDGE_LOOP('',(#324,#325,#326,#327));
#246=AXIS2_PLACEMENT_3D('',#328,#329,#330);
#247=EDGE_LOOP('',(#331,#332,#333,#334));
#248=AXIS2_PLACEMENT_3D('',#335,#336,#337);
#249=ORIENTED_EDGE('',*,*,#338,.F.);
#250=ORIENTED_EDGE('',*,*,#339,.T.);
#251=ORIENTED_EDGE('',*,*,#340,.T.);
#252=ORIENTED_EDGE('',*,*,#341,.F.);
#253=CARTESIAN_POINT('',(2.69749500514394E-016,-0.1075,0.00725));
#254=DIRECTION('',(0.0,1.0,0.0));
#255=DIRECTION('',(0.0,0.0,1.0));
#256=ORIENTED_EDGE('',*,*,#342,.F.);
#257=ORIENTED_EDGE('',*,*,#343,.T.);
#258=ORIENTED_EDGE('',*,*,#338,.T.);
#259=ORIENTED_EDGE('',*,*,#344,.F.);
#260=CARTESIAN_POINT('',(-0.00224999999999974,-0.1075,0.11275));
#261=DIRECTION('',(1.0,0.0,1.23321574121574E-016));
#262=DIRECTION('',(-1.23321574121574E-016,0.0,1.0));
#263=ORIENTED_EDGE('',*,*,#345,.F.);
#264=ORIENTED_EDGE('',*,*,#346,.T.);
#265=ORIENTED_EDGE('',*,*,#342,.T.);
#266=ORIENTED_EDGE('',*,*,#347,.F.);
#267=CARTESIAN_POINT('',(2.63244287479481E-016,-0.1075,0.11275));
#268=DIRECTION('',(0.0,1.0,0.0));
#269=DIRECTION('',(0.0,0.0,1.0));
#270=ORIENTED_EDGE('',*,*,#348,.T.);
#271=ORIENTED_EDGE('',*,*,#349,.F.);
#272=ORIENTED_EDGE('',*,*,#350,.T.);
#273=ORIENTED_EDGE('',*,*,#347,.T.);
#274=ORIENTED_EDGE('',*,*,#344,.T.);
#275=ORIENTED_EDGE('',*,*,#341,.T.);
#276=CARTESIAN_POINT('',(0.0,0.0,-1.0842021724855E-019));
#277=DIRECTION('',(0.0,-6.12323399573677E-017,-1.0));
#278=DIRECTION('',(0.0,1.0,-6.12323399573677E-017));
#279=ORIENTED_EDGE('',*,*,#349,.T.);
#280=ORIENTED_EDGE('',*,*,#351,.F.);
#281=CARTESIAN_POINT('',(0.0,6.93889390390723E-018,0.12));
#282=DIRECTION('',(-0.0,6.12323399573677E-017,1.0));
#283=DIRECTION('',(0.0,-1.0,6.12323399573677E-017));
#284=ORIENTED_EDGE('',*,*,#352,.T.);
#285=ORIENTED_EDGE('',*,*,#348,.F.);
#286=CARTESIAN_POINT('',(0.0,0.0,0.002));
#287=DIRECTION('',(0.0,-6.12323399573677E-017,-1.0));
#288=DIRECTION('',(0.0,1.0,-6.12323399573677E-017));
#289=ORIENTED_EDGE('',*,*,#353,.T.);
#290=ORIENTED_EDGE('',*,*,#352,.F.);
#291=CARTESIAN_POINT('',(0.107,0.0,9.92044987824237E-018));
#292=DIRECTION('',(0.0,-6.12323399573677E-017,-1.0));
#293=DIRECTION('',(0.0,1.0,-6.12323399573677E-017));
#294=ORIENTED_EDGE('',*,*,#354,.T.);
#295=ORIENTED_EDGE('',*,*,#353,.F.);
#296=CARTESIAN_POINT('',(0.0,0.0,1.02999206386123E-017));
#297=DIRECTION('',(-0.0,6.12323399573677E-017,1.0));
#298=DIRECTION('',(0.0,-1.0,6.12323399573677E-017));
#299=ORIENTED_EDGE('',*,*,#355,.T.);
#300=ORIENTED_EDGE('',*,*,#354,.F.);
#301=CARTESIAN_POINT('',(0.0,0.0,-1.0842021724855E-019));
#302=DIRECTION('',(0.0,-6.12323399573677E-017,-1.0));
#303=DIRECTION('',(0.0,1.0,-6.12323399573677E-017));
#304=ORIENTED_EDGE('',*,*,#356,.T.);
#305=ORIENTED_EDGE('',*,*,#355,.F.);
#306=CARTESIAN_POINT('',(0.0,6.93889390390723E-018,0.118));
#307=DIRECTION('',(0.0,-6.12323399573677E-017,-1.0));
#308=DIRECTION('',(0.0,1.0,-6.12323399573677E-017));
#309=ORIENTED_EDGE('',*,*,#351,.T.);
#310=ORIENTED_EDGE('',*,*,#356,.F.);
#311=CARTESIAN_POINT('',(0.113,6.93889390390723E-018,0.12));
#312=DIRECTION('',(0.0,6.12323399573677E-017,1.0));
#313=DIRECTION('',(0.0,-1.0,6.12323399573677E-017));
#314=ORIENTED_EDGE('',*,*,#357,.F.);
#315=ORIENTED_EDGE('',*,*,#346,.F.);
#316=CARTESIAN_POINT('',(2.63244287479481E-016,-0.10525,0.11275));
#317=DIRECTION('',(0.0,-1.0,0.0));
#318=DIRECTION('',(0.0,0.0,-1.0));
#319=ORIENTED_EDGE('',*,*,#339,.F.);
#320=ORIENTED_EDGE('',*,*,#358,.T.);
#321=CARTESIAN_POINT('',(2.69749500514394E-016,-0.10525,0.00725));
#322=DIRECTION('',(0.0,-1.0,0.0));
#323=DIRECTION('',(0.0,0.0,-1.0));
#324=ORIENTED_EDGE('',*,*,#340,.F.);
#325=ORIENTED_EDGE('',*,*,#359,.T.);
#326=ORIENTED_EDGE('',*,*,#345,.T.);
#327=ORIENTED_EDGE('',*,*,#350,.F.);
#328=CARTESIAN_POINT('',(0.00225000000000027,-0.1075,0.00725));
#329=DIRECTION('',(-1.0,0.0,0.0));
#330=DIRECTION('',(0.0,1.0,0.0));
#331=ORIENTED_EDGE('',*,*,#343,.F.);
#332=ORIENTED_EDGE('',*,*,#357,.T.);
#333=ORIENTED_EDGE('',*,*,#359,.F.);
#334=ORIENTED_EDGE('',*,*,#358,.F.);
#335=CARTESIAN_POINT('',(2.56739074444568E-016,-0.10525,0.11275));
#336=DIRECTION('',(1.23321574121574E-016,0.0,-1.0));
#337=DIRECTION('',(-1.0,0.0,-1.23321574121574E-016));
#338=EDGE_CURVE('',#360,#361,#362,.T.);
#339=EDGE_CURVE('',#360,#363,#364,.F.);
#340=EDGE_CURVE('',#363,#365,#366,.T.);
#341=EDGE_CURVE('',#361,#365,#367,.T.);
#342=EDGE_CURVE('',#368,#369,#370,.T.);
#343=EDGE_CURVE('',#368,#360,#371,.T.);
#344=EDGE_CURVE('',#369,#361,#372,.T.);
#345=EDGE_CURVE('',#373,#374,#375,.T.);
#346=EDGE_CURVE('',#373,#368,#376,.F.);
#347=EDGE_CURVE('',#374,#369,#377,.T.);
#348=EDGE_CURVE('',#378,#378,#379,.T.);
#349=EDGE_CURVE('',#380,#380,#381,.T.);
#350=EDGE_CURVE('',#365,#374,#382,.F.);
#351=EDGE_CURVE('',#383,#383,#384,.T.);
#352=EDGE_CURVE('',#385,#385,#386,.T.);
#353=EDGE_CURVE('',#387,#387,#388,.T.);
#354=EDGE_CURVE('',#389,#389,#390,.T.);
#355=EDGE_CURVE('',#391,#391,#392,.T.);
#356=EDGE_CURVE('',#393,#393,#394,.T.);
#357=EDGE_CURVE('',#368,#373,#395,.T.);
#358=EDGE_CURVE('',#360,#363,#396,.T.);
#359=EDGE_CURVE('',#363,#373,#397,.T.);
#360=VERTEX_POINT('',#398);
#361=VERTEX_POINT('',#399);
#362=LINE('',#400,#401);
#363=VERTEX_POINT('',#402);
#364=CIRCLE('',#403,0.00225);
#365=VERTEX_POINT('',#404);
#366=LINE('',#405,#406);
#367=B_SPLINE_CURVE_WITH_KNOTS('',3,(#407,#408,#409,#410,#411,#412,#413,#414,#415,#416,#417,#418,#419,#420,#421,#422,#423,#424,#425,#426,#427,#428,#429,#430,#431,#432,#433,#434,#435,#436),.UNSPECIFIED.,.F.,.F.,(4,2,2,2,2,2,2,2,2,2,2,2,2,2,4),(0.0,0.000439580026208716,0.000879160052417433,0.00131874007862615,0.00175832010483487,0.0026374801572523,0.00351664020966973,0.00395622023587844,0.00439580026208716,0.00483538028829587,0.00527496031450459,0.00571454034071331,0.00615412036692202,0.00659370039313074,0.00703328041933945),.UNSPECIFIED.);
#368=VERTEX_POINT('',#437);
#369=VERTEX_POINT('',#438);
#370=LINE('',#439,#440);
#371=LINE('',#441,#442);
#372=LINE('',#443,#444);
#373=VERTEX_POINT('',#445);
#374=VERTEX_POINT('',#446);
#375=LINE('',#447,#448);
#376=CIRCLE('',#449,0.00225);
#377=B_SPLINE_CURVE_WITH_KNOTS('',3,(#450,#451,#452,#453,#454,#455,#456,#457,#458,#459,#460,#461,#462,#463,#464,#465,#466,#467,#468,#469,#470,#471,#472,#473,#474,#475,#476,#477,#478,#479),.UNSPECIFIED.,.F.,.F.,(4,2,2,2,2,2,2,2,2,2,2,2,2,2,4),(0.0,0.00043958002620873,0.00087916005241746,0.00131874007862619,0.00175832010483492,0.00263748015725235,0.00351664020966978,0.00395622023587849,0.00439580026208721,0.00483538028829592,0.00527496031450464,0.00571454034071335,0.00615412036692206,0.00659370039313078,0.00703328041933949),.UNSPECIFIED.);
#378=VERTEX_POINT('',#480);
#379=CIRCLE('',#481,0.105);
#380=VERTEX_POINT('',#482);
#381=CIRCLE('',#483,0.105);
#382=LINE('',#484,#485);
#383=VERTEX_POINT('',#486);
#384=CIRCLE('',#487,0.107);
#385=VERTEX_POINT('',#488);
#386=CIRCLE('',#489,0.107);
#387=VERTEX_POINT('',#490);
#388=CIRCLE('',#491,0.113);
#389=VERTEX_POINT('',#492);
#390=CIRCLE('',#493,0.115);
#391=VERTEX_POINT('',#494);
#392=CIRCLE('',#495,0.115);
#393=VERTEX_POINT('',#496);
#394=CIRCLE('',#497,0.113);
#395=CIRCLE('',#498,0.00225);
#396=CIRCLE('',#499,0.00225);
#397=LINE('',#500,#501);
#398=CARTESIAN_POINT('',(-0.00224999999999973,-0.10525,0.00725));
#399=CARTESIAN_POINT('',(-0.00224999999999973,-0.104975890089106,0.00725));
#400=CARTESIAN_POINT('',(-0.00224999999999973,-0.1075,0.00725));
#401=VECTOR('',#502,1.0);
#402=CARTESIAN_POINT('',(0.00225000000000027,-0.10525,0.00725));
#403=AXIS2_PLACEMENT_3D('',#503,#504,#505);
#404=CARTESIAN_POINT('',(0.00225000000000027,-0.104975890089106,0.00725));
#405=CARTESIAN_POINT('',(0.00225000000000027,-0.1075,0.00725));
#406=VECTOR('',#506,1.0);
#407=CARTESIAN_POINT('',(-0.00224999999999973,-0.104975890089106,0.00725));
#408=CARTESIAN_POINT('',(-0.00224999999999973,-0.104975890089106,0.00710136331887916));
#409=CARTESIAN_POINT('',(-0.00223541617218828,-0.104976205547679,0.00695521108229496));
#410=CARTESIAN_POINT('',(-0.00217827456766619,-0.104977406790982,0.00666767201961326));
#411=CARTESIAN_POINT('',(-0.00213502359848252,-0.104978306630608,0.0065247964427513));
#412=CARTESIAN_POINT('',(-0.00202210687898445,-0.104980542352219,0.00625233786506292));
#413=CARTESIAN_POINT('',(-0.00195300888571288,-0.104981867105328,0.00612311419753655));
#414=CARTESIAN_POINT('',(-0.00178976046981986,-0.104984777096915,0.00587855084668171));
#415=CARTESIAN_POINT('',(-0.00169474236173712,-0.104986373501859,0.00576275821850199));
#416=CARTESIAN_POINT('',(-0.00138340261038474,-0.104991091470636,0.00545142935229603));
#417=CARTESIAN_POINT('',(-0.00113242944760023,-0.104994242163506,0.00528379073013466));
#418=CARTESIAN_POINT('',(-0.000591027538750444,-0.104998685565064,0.00505932389542967));
#419=CARTESIAN_POINT('',(-0.000294974052776003,-0.104999995730149,0.0050001992597417));
#420=CARTESIAN_POINT('',(0.000145201255655435,-0.105000002118339,0.00499990114416596));
#421=CARTESIAN_POINT('',(0.000294232384899083,-0.104999686877841,0.00501447634703775));
#422=CARTESIAN_POINT('',(0.000582792797616143,-0.104998481749481,0.00507181468779077));
#423=CARTESIAN_POINT('',(0.000723044222878337,-0.104997598824656,0.00511425071952911));
#424=CARTESIAN_POINT('',(0.000995445759303456,-0.104995369610435,0.00522680804727911));
#425=CARTESIAN_POINT('',(0.00112723131536336,-0.104994019921189,0.00529722208849478));
#426=CARTESIAN_POINT('',(0.001371096399967,-0.10499111850205,0.00546000372290996));
#427=CARTESIAN_POINT('',(0.00148475811318561,-0.104989554410976,0.00555293187999702));
#428=CARTESIAN_POINT('',(0.00169489653027294,-0.104986372295749,0.00576276343163914));
#429=CARTESIAN_POINT('',(0.00178823109302181,-0.104984803079942,0.00587660727146779));
#430=CARTESIAN_POINT('',(0.00195127793476876,-0.104981899214091,0.00612018034619689));
#431=CARTESIAN_POINT('',(0.00202174457251832,-0.104980549374846,0.00625158894922764));
#432=CARTESIAN_POINT('',(0.00213482698452223,-0.104978310673715,0.00652419734847035));
#433=CARTESIAN_POINT('',(0.00217742890792441,-0.104977424407131,0.00666442363827863));
#434=CARTESIAN_POINT('',(0.00223509819582532,-0.104976212390517,0.00695262417803372));
#435=CARTESIAN_POINT('',(0.00225000000000027,-0.104975890089106,0.00710136333870151));
#436=CARTESIAN_POINT('',(0.00225000000000027,-0.104975890089106,0.00725));
#437=CARTESIAN_POINT('',(-0.00224999999999974,-0.10525,0.11275));
#438=CARTESIAN_POINT('',(-0.00224999999999974,-0.104975890089106,0.11275));
#439=CARTESIAN_POINT('',(-0.00224999999999974,-0.1075,0.11275));
#440=VECTOR('',#507,1.0);
#441=CARTESIAN_POINT('',(-0.00224999999999974,-0.10525,0.11275));
#442=VECTOR('',#508,1.0);
#443=CARTESIAN_POINT('',(-0.00224999999999973,-0.104975890089106,6.04202563024132E-018));
#444=VECTOR('',#509,1.0);
#445=CARTESIAN_POINT('',(0.00225000000000027,-0.10525,0.11275));
#446=CARTESIAN_POINT('',(0.00225000000000027,-0.104975890089106,0.11275));
#447=CARTESIAN_POINT('',(0.00225000000000027,-0.1075,0.11275));
#448=VECTOR('',#510,1.0);
#449=AXIS2_PLACEMENT_3D('',#511,#512,#513);
#450=CARTESIAN_POINT('',(0.00225000000000027,-0.104975890089106,0.11275));
#451=CARTESIAN_POINT('',(0.00225000000000027,-0.104975890089106,0.112898636681121));
#452=CARTESIAN_POINT('',(0.00223541617218881,-0.104976205547679,0.113044788917705));
#453=CARTESIAN_POINT('',(0.00217827456766672,-0.104977406790982,0.113332327980387));
#454=CARTESIAN_POINT('',(0.00213502359848305,-0.104978306630608,0.113475203557249));
#455=CARTESIAN_POINT('',(0.00202210687898499,-0.104980542352219,0.113747662134937));
#456=CARTESIAN_POINT('',(0.00195300888571342,-0.104981867105328,0.113876885802463));
#457=CARTESIAN_POINT('',(0.00178976046982038,-0.104984777096915,0.114121449153318));
#458=CARTESIAN_POINT('',(0.00169474236173766,-0.104986373501859,0.114237241781498));
#459=CARTESIAN_POINT('',(0.00138340261038527,-0.104991091470636,0.114548570647704));
#460=CARTESIAN_POINT('',(0.00113242944760078,-0.104994242163506,0.114716209269865));
#461=CARTESIAN_POINT('',(0.000591027538750982,-0.104998685565064,0.11494067610457));
#462=CARTESIAN_POINT('',(0.000294974052776536,-0.104999995730149,0.114999800740258));
#463=CARTESIAN_POINT('',(-0.000145201255654897,-0.105000002118339,0.115000098855834));
#464=CARTESIAN_POINT('',(-0.00029423238489855,-0.104999686877841,0.114985523652962));
#465=CARTESIAN_POINT('',(-0.000582792797615607,-0.104998481749481,0.114928185312209));
#466=CARTESIAN_POINT('',(-0.0007230442228778,-0.104997598824656,0.114885749280471));
#467=CARTESIAN_POINT('',(-0.000995445759302919,-0.104995369610435,0.114773191952721));
#468=CARTESIAN_POINT('',(-0.00112723131536282,-0.104994019921189,0.114702777911505));
#469=CARTESIAN_POINT('',(-0.00137109639996646,-0.10499111850205,0.11453999627709));
#470=CARTESIAN_POINT('',(-0.00148475811318508,-0.104989554410976,0.114447068120003));
#471=CARTESIAN_POINT('',(-0.00169489653027243,-0.10498637229575,0.114237236568361));
#472=CARTESIAN_POINT('',(-0.00178823109302127,-0.104984803079942,0.114123392728532));
#473=CARTESIAN_POINT('',(-0.00195127793476823,-0.104981899214091,0.113879819653803));
#474=CARTESIAN_POINT('',(-0.00202174457251779,-0.104980549374846,0.113748411050772));
#475=CARTESIAN_POINT('',(-0.00213482698452169,-0.104978310673715,0.11347580265153));
#476=CARTESIAN_POINT('',(-0.00217742890792387,-0.104977424407131,0.113335576361721));
#477=CARTESIAN_POINT('',(-0.00223509819582479,-0.104976212390517,0.113047375821966));
#478=CARTESIAN_POINT('',(-0.00224999999999974,-0.104975890089106,0.112898636661299));
#479=CARTESIAN_POINT('',(-0.00224999999999974,-0.104975890089106,0.11275));
#480=CARTESIAN_POINT('',(0.0,0.105,0.002));
#481=AXIS2_PLACEMENT_3D('',#514,#515,#516);
#482=CARTESIAN_POINT('',(0.0,0.105,0.118));
#483=AXIS2_PLACEMENT_3D('',#517,#518,#519);
#484=CARTESIAN_POINT('',(0.00225000000000027,-0.104975890089106,6.31949917201483E-018));
#485=VECTOR('',#520,1.0);
#486=CARTESIAN_POINT('',(0.0,0.107,0.12));
#487=AXIS2_PLACEMENT_3D('',#521,#522,#523);
#488=CARTESIAN_POINT('',(0.0,0.107,2.9891187424341E-018));
#489=AXIS2_PLACEMENT_3D('',#524,#525,#526);
#490=CARTESIAN_POINT('',(0.0,0.113,3.38066622342974E-018));
#491=AXIS2_PLACEMENT_3D('',#527,#528,#529);
#492=CARTESIAN_POINT('',(0.0,0.115,0.002));
#493=AXIS2_PLACEMENT_3D('',#530,#531,#532);
#494=CARTESIAN_POINT('',(0.0,0.115,0.118));
#495=AXIS2_PLACEMENT_3D('',#533,#534,#535);
#496=CARTESIAN_POINT('',(0.0,0.113,0.12));
#497=AXIS2_PLACEMENT_3D('',#536,#537,#538);
#498=AXIS2_PLACEMENT_3D('',#539,#540,#541);
#499=AXIS2_PLACEMENT_3D('',#542,#543,#544);
#500=CARTESIAN_POINT('',(0.00225000000000027,-0.10525,0.00725));
#501=VECTOR('',#545,1.0);
#502=DIRECTION('',(0.0,1.0,0.0));
#503=CARTESIAN_POINT('',(2.69749500514394E-016,-0.10525,0.00725));
#504=DIRECTION('',(0.0,1.0,0.0));
#505=DIRECTION('',(0.0,0.0,1.0));
#506=DIRECTION('',(0.0,1.0,0.0));
#507=DIRECTION('',(0.0,1.0,0.0));
#508=DIRECTION('',(1.23321574121574E-016,0.0,-1.0));
#509=DIRECTION('',(0.0,-6.12323399573677E-017,-1.0));
#510=DIRECTION('',(0.0,1.0,0.0));
#511=CARTESIAN_POINT('',(2.63244287479481E-016,-0.10525,0.11275));
#512=DIRECTION('',(0.0,1.0,0.0));
#513=DIRECTION('',(0.0,0.0,1.0));
#514=CARTESIAN_POINT('',(0.0,0.0,0.002));
#515=DIRECTION('',(0.0,-6.12323399573677E-017,-1.0));
#516=DIRECTION('',(0.0,1.0,-6.12323399573677E-017));
#517=CARTESIAN_POINT('',(0.0,6.93889390390723E-018,0.118));
#518=DIRECTION('',(0.0,-6.12323399573677E-017,-1.0));
#519=DIRECTION('',(0.0,1.0,-6.12323399573677E-017));
#520=DIRECTION('',(0.0,-6.12323399573677E-017,-1.0));
#521=CARTESIAN_POINT('',(0.0,6.93889390390723E-018,0.12));
#522=DIRECTION('',(0.0,-6.12323399573677E-017,-1.0));
#523=DIRECTION('',(0.0,1.0,-6.12323399573677E-017));
#524=CARTESIAN_POINT('',(0.0,0.0,9.54097911787244E-018));
#525=DIRECTION('',(0.0,-6.12323399573677E-017,-1.0));
#526=DIRECTION('',(0.0,1.0,-6.12323399573677E-017));
#527=CARTESIAN_POINT('',(0.0,0.0,1.02999206386123E-017));
#528=DIRECTION('',(0.0,-6.12323399573677E-017,-1.0));
#529=DIRECTION('',(0.0,1.0,-6.12323399573677E-017));
#530=CARTESIAN_POINT('',(0.0,0.0,0.002));
#531=DIRECTION('',(0.0,-6.12323399573677E-017,-1.0));
#532=DIRECTION('',(0.0,1.0,-6.12323399573677E-017));
#533=CARTESIAN_POINT('',(0.0,6.93889390390723E-018,0.118));
#534=DIRECTION('',(0.0,-6.12323399573677E-017,-1.0));
#535=DIRECTION('',(0.0,1.0,-6.12323399573677E-017));
#536=CARTESIAN_POINT('',(0.0,6.93889390390723E-018,0.12));
#537=DIRECTION('',(0.0,-6.12323399573677E-017,-1.0));
#538=DIRECTION('',(0.0,1.0,-6.12323399573677E-017));
#539=CARTESIAN_POINT('',(2.56305393575573E-016,-0.10525,0.11275));
#540=DIRECTION('',(-1.2335811384724E-014,-3.80430606298713E-029,1.0));
#541=DIRECTION('',(1.0,0.0,1.2335811384724E-014));
#542=CARTESIAN_POINT('',(2.69749500514394E-016,-0.10525,0.00725));
#543=DIRECTION('',(0.0,3.70074341541718E-014,1.0));
#544=DIRECTION('',(0.0,-1.0,3.70074341541719E-014));
#545=DIRECTION('',(0.0,0.0,1.0));
ENDSEC;
END-ISO-10303-21;
